Home - Social Network - Shopping Mall - Contact Us

The Beatles Website.com

The Only Beatles Website You Need

 
Information Home  -  Photos  - Discography (UK) - Discography (US) -   Albums  -  Songs  -  Guitar  - Timeline - Biographies - Documents  -  Quotes  -  Contact Us - Beatles Radio Shows - Beatles -


Beatles Social Network

Beatles Shopping
Mall

Beatles Biographies

Beatles Discography

 

 

 

 

 

Something

George Harrison
Album: Abbey Road

Chords used:
       {eADGBE}
C       x32010
Cmaj7   x32000
C7      x32310
F       133211
D       xx0232
G       320033
Eb      x4435x
G#dim7  456464
D/F#    200232
Am      x02210
Am7     x02010
C#m/G#  44665x
A/E     002220


C                          Cmaj7
  Something in the way she moves
C7                            F
  Attracts me like no other lover
    D                       G
  Something in the way she woos me
     Am                    G#dim7
  I don't want to leave her now
       Am7              D/F# 
  You know I believe in how  


now Play theis riff:
    F                Eb  G   C
|--------------------------------
|--10--b(13)12--10--11--12--13---
|--------------------------------
|--------------------------------
|--------------------------------
|--------------------------------



C                            Cmaj7
  Somewhere in her smile she knows
C7                            F
  That I don't need no other lover
   D                           G
  Something in her style that shows me
    Am                     G#dim7          
  I don't want to leave her now            
      Am7               D/F#  
  You know I believe in how    


now this riff:
  F                Eb  G   A 
|-----------------------------|
|-----------------------------|
|-10--b(13)12--10--11--12--14-|
|-----------------------------|
|-----------------------------|
|-----------------------------|


  A         C#m/G#             F#m
You're asking me will my love grow
A/E          D     G        A  
   I don't know   I don't know
 A        C#m/G#             F#m
You stick around and it may show
A/E         D     G        C  
   I don't know   I don't know


Solo
  C        Cmaj7                      C7
|-------------------------------------------------------------8----|
|-------8----------8b(10)-b(10)8-------------8--10--8---8/10-------|
|--7/9-----9--7/9----------------9------7/9------------------------|
|------------------------------------------------------------------|
|------------------------------------------------------------------|
|------------------------------------------------------------------|

              F                                     D        
|--8--10--b(12)10--8-------------8--8\-----------------------------|
|---------------------10-----/10--------------8--8-----------------|
|-----------------------------------------/9--------\2---4\2-------|
|------------------------------------------------------------------|
|------------------------------------------------------------------|
|------------------------------------------------------------------|

                         G
|-------------------------------------------------9-8-7--/12-11-10-|
|-------7--7--b(11)10--10b(11)10 10b(11)10--8---8------------------|
|--2/7-------------------------------------------------------------|
|------------------------------------------------------------------|
|------------------------------------------------------------------|
|------------------------------------------------------------------|

   Am                 G#dim7                   Am7
|------------------------------------------------------------------|
|------------------------------------------------------------------|
|-----b(9)7--b(9)7--5----b(9)7-b(9)7-b(9)7--5-- b(9)7--b(9)7--5----|
|------------------------------------------------------------------|
|------------------------------------------------------------------|
|------------------------------------------------------------------|

              D                  F               Eb  G   C
|----------10/12--10--8--10--8-------------------------------------|
|-------8-----------------------10--b(13)12--10--11--12--13--------|
|--7/9-------------------------------------------------------------|
|------------------------------------------------------------------|
|------------------------------------------------------------------|
|------------------------------------------------------------------|


C                        Cmaj7
  Something in the way she knows
C7                         F     
  And all I have to do is think of her
   D                           G
  Something in the things she shows me
     Am                    G#dim7
  I don't want to leave her now
       Am7               D   
  You know I believe in how 


Now this riff is played:
   F                Eb  G   A                F                Eb  G   C
|---------------------------------16-15-14-------------------------------|
|-10--b(13)12--10--11--12--14--14-----------10--b(13)12--10--11--12--13--|
|------------------------------------------------------------------------|
|------------------------------------------------------------------------|
|------------------------------------------------------------------------|
|------------------------------------------------------------------------|




 
© A "Fab Four and More" Website - TheBeatlesWebsite.com 2012