Home - Social Network - Shopping Mall - Contact Us

The Beatles Website.com

The Only Beatles Website You Need

 
Information Home  -  Photos  - Discography (UK) - Discography (US) -   Albums  -  Songs  -  Guitar  - Timeline - Biographies - Documents  -  Quotes  -  Contact Us - Beatles Radio Shows - Beatles -


Beatles Social Network

Beatles Shopping
Mall

Beatles Biographies

Beatles Discography

 

 

 

 

 

Run For Your Life

Lennon/McCartney
Album: Rubber Soul
Chords used:
       {eADGBE}
D       xx0232
Bm      224432
E       022100
G       320033
F#      244322




[verse 1]
           D
Well I'd rather see you dead little girl
        Bm
Than to be with another man
          D
You better keep your head little girl
            Bm
Or you won't know where I am


[chorus]	        	                     E
You better run for your life if you can little girl
 Bm                    E
Hide your head in the sand little girl
 Bm                     G  
Catch you with another man
 F#        Bm               D
That's the end little girl.

	
riff 1

|----------|-----------|-----------|-----------|-----------|----------|
|----------|-----1---0-|-----------|-----1---0-|-----------|----------|
|----------|-----------|-2-------2-|-----------|-2-------2-|----------|
|----------|-0---------|----3--4---|-0---------|----3--4---|----------|
|--2--3--4-|-----------|-----------|-----------|-----------|----------|
|----------|-----------|-----------|-----------|-----------|----------|


[verse2]
          D
Well you know that I'm a wicked guy
           Bm
And I was born with a jealous mind
    D
And I can spend my whole life
                Bm
Tryin' just to make you tow the line.

	
[chorus]	
                                     E
You better run for your life if you can little girl
 Bm                    E
Hide your head in the sand little girl
 Bm                     G
Catch you with another man
 F#        Bm               D
That's the end little girl.

[solo]	


|---|---15|b(17)-b(17)15-13-15-13------|-----15|b(17)(17)-b(17)15-13-----|
|---|-----|----------------------15-13-|15-15--|--------------------15-13|
|---|-----|----------------------------|-------|-------------------------|
|---|-----|----------------------------|-------|-------------------------|
|---|-----|----------------------------|-------|-------------------------|
|---|-----|----------------------------|-------|-------------------------|


|----------|-----12------------------|------------|----------------------|
|15--15--15|b(17)---b(17)15-13----13-|15---15-----|-----10---------------|
|----------|-------------------15----|----------12|b(14)---b(14)12-10----|
|----------|-------------------------|------------|-------------------12-|
|----------|-------------------------|------------|----------------------|
|----------|-------------------------|------------|----------------------|



|--------|---------------------|-----------|----------------------|------|
|--------|---------------------|-----------|-----10---------------|------|
|--------|---------------------|---------12|b(14)---b(14)12-10----|------|
|--------|--------12----12-----|12--12-----|-------------------12-|------|
|--------|---10/12----12----12-|-----------|----------------------|------|
|--------|---------------------|-----------|----------------------|------|








[verse 3]
         D 
Let this be a sermon
                Bm
I mean every thing I said
         D
Baby I'm determined
                  Bm
That I'd rather see you dead


[chorus]
                                             E
You better run for your life if you can little girl
 Bm                    E
Hide your head in the sand little girl
 Bm                     G  
Catch you with another man
 F#        Bm               D
That's the end little girl.



|----------|------------|------------|------------|------------|---------|
|----------|------1---0-|------------|------1---0-|------------|---------|
|----------|------------|-2--------2-|------------|-2--------2-|---------|
|----------|-0----------|-----3--4---|-0----------|-----3--4---|---------|
|--2--3--4-|------------|------------|------------|------------|---------|
|----------|------------|------------|------------|------------|---------|


[verse 4]
      D
I'd rather see you dead little girl
        Bm
Than to be with another man
          D
You better keep your head little girl
            Bm
Or you won't know where I am


[chorus]
                                             E
You better run for your life if you can little girl
 Bm                    E
Hide your head in the sand little girl
 Bm                     G  
Catch you with another man
 F#        Bm               D
That's the end little girl.



|----------|------------|------------|------------|------------|---------|
|----------|------1---0-|------------|------1---0-|------------|---------|
|----------|------------|-2--------2-|------------|-2--------2-|---------|
|----------|-0----------|-----3--4---|-0----------|-----3--4---|---------|
|--2--3--4-|------------|------------|------------|------------|---------|
|----------|------------|------------|------------|------------|---------|


         (repeat and fade)                                   No No No


              
 
© A "Fab Four and More" Website - TheBeatlesWebsite.com 2012