Home - Social Network - Shopping Mall - Contact Us

The Beatles Website.com

The Only Beatles Website You Need

 
Information Home  -  Photos  - Discography (UK) - Discography (US) -   Albums  -  Songs  -  Guitar  - Timeline - Biographies - Documents  -  Quotes  -  Contact Us - Beatles Radio Shows - Beatles -


Beatles Social Network

Beatles Shopping
Mall

Beatles Biographies

Beatles Discography

 

 

 

 

 

I Will

Lennon/McCartney
Album: The Beatles (The White Album)

Chords used:
       {eADGBE}
E       022100
C#m7    x46454
F#m7    464474

B7      x21202
G#m     466444

E7      020100
A       x02220
B7      x21202



      E       C#m7      F#m7       B7
Who knows how long I've loved you?
     E     C#m7      G#m
You know I love you still.
 E7     A      B7      C#m7   E
Will I wait a lonely lifetime?

        A      B7      
If you want me to, I will.

  E                     A        B7              
|---0-------0-------------0--------0----------|  
|------2-------2-0-----------2--------2-0-----|  
|--------1---------0h1---------2----------0h1-| 
|---------------------------------------------|  
|---------------------------------------------|  
|---------------------------------------------|  
|-0-------------------------------------------| 





     E   C#m7  Fm#7      B7
For if I ever  saw  you,
   E      C#m7      G#m
I didn't catch your name.
E7      A      B7     C#m7   E
But it never really mattered;
         A     B7       
I will always feel the same.


  E          E7
|---0-------------------|
|------0-----3--2-0-----|
|--------1----------0h1-|
|-----------------------|
|-----------------------|
|-----------------------|
|-0---------------------|



 
  A   G#m  C#m        F#m   B7     
|-----------------------------|
|-----------2----4--5---------|
|-2----1---------------2----4-|
|-----------------------------|
|-----------------------------|
|-----------------------------|
|-----------------------------|

Love you forever and forever,
F#m            B7         E    E7 
Love you with all of my heart.

  A   G#m  C#m        F#         B7    
|---------------------------2----7--5--4--2-|
|-----------2----4--5-----------------------|
|-2----1---------------3---------8--6--4--2-| 
|-------------------------------------------| 
|-------------------------------------------| 
|-------------------------------------------| 
|-------------------------------------------| 

Love you whenever we're together,
         
Love you when we're apart.


      E     C#m7   F#m7     B7
And when at last I find you,
      E        C#m7     G#m
Your song will fill the air.
 E7      A      B7    C#m7    A  E
Sing it loud so I can hear you,
         A   B7    C#m7    A  E
Make it easy to be near you,
          A        B7   C#m    A  E
For the things you do  endear you to me,
F#m	B7	
Oh you know I will.

  C                                     
|--0-------0----------0-------0---------|
|-----3-1-----3-1--------3-1-----3-1----|
|-----------------0-------------------0-|
|---------------------------------------|
|---------------------------------------|
|---------------------------------------|
|---------------------------------------|



 E                       E        E7
|----0--------0------------0------------------|
|------2p0------2-0----------0-----3--2-0-----|
|----------1--------0h1--------1----------0h1-|
|---------------------------------------------|
|---------------------------------------------|
|---------------------------------------------|
|-0----------------------0--------------------|

I will!


   A   G#m  C#m       F#m   B7   E    
|----------------------------------|
|-----------2----4--5--------------|
|-2----1---------------2----4----4-| 
|----------------------------------|
|----------------------------------|
|----------------------------------|

Mm mm mm mm mm mm mm mm mm, 

 Da da da da da da da.



        
 
© A "Fab Four and More" Website - TheBeatlesWebsite.com 2012