Home - Social Network - Shopping Mall - Contact Us

The Beatles Website.com

The Only Beatles Website You Need

 
Information Home  -  Photos  - Discography (UK) - Discography (US) -   Albums  -  Songs  -  Guitar  - Timeline - Biographies - Documents  -  Quotes  -  Contact Us - Beatles Radio Shows - Beatles -


Beatles Social Network

Beatles Shopping
Mall

Beatles Biographies

Beatles Discography

 

 

 

 

 

Get Back

Lennon/McCartney
Album: Let It Be
Chords used:
       {eADGBE}
A       x02220
D       xx0232
G       320033





The intro goes with an E5 played in eights, and then we have:


e|-----------------|-----------------|----------------|
B|---------3-------|-----------------|----------------|
G|---------2---2---|-----------------|----------------|
D|-2-2-2-2-0---2---|-----------------|----------------|
A|-2-2-2-2-----0---|-2-2-4-4-2-2-4-4-|-2-2-4-4-2-2-4-4|
E|-0-0-0-0---------|-0-0-0-0-0-0-0-0-|-0-0-0-0-0-0-0-0|


e|-----------------|
B|-----------------|
G|-----------------|
D|-2-2-4-4-2-2-4-4-|
A|-0-0-0-0-0-0-0-0-|
E| ----------------| 


Here we start singing.........

e|-----------------|
B|---------3-------|
G|---------2---2---|
D|---------0---2---|
A|-2-2-4-4-----0---|
E|-0-0-0-0---------|

^ these are only done the 2nd verse I think.. (listen to the record..)

All this goes twice, and then we have:

Chorus:

e|---------------|--same again--|-----------------|---------------|
B|-----2-3-------|--------------|-----------------|---------3-----|
G|---4-----------|--------------|-2-2-2-2-2-2-2-2-|---------2---2-|
D|-2-------------|--------------|-2-2-2-2-2-2-2-2-|-2-2-2-2-0---2-|
A|---------------|--------------|-0-0-0-0-0-0-0-0-|-2-2-2-2-----0-|
E|---------------|--------------|-----------------|-0-0-0-0-------|
This is the riff for the lead guitar.. If you 
play it by yourself you'd better stick to E5 or perhaps an E7-chord 
for the two first measures..
This is also repeated twice.. And VOILA.. Get 
Back.. I'm not sure about the end though, but then again I don't 
think the Beatles were too sure about that either...


A                  A
Jojo was a man who thought he was a loner,

D                       A   G D
But he knew it couldn't last.

A                     A
Jojo left his home in Tuscon, Arizona

D                   A  G D
For some California grass

A          A
Get back,  get back

D                        A      G D
Back to where you once belonged

A          A
Get back,  get back

D                        A
Back to where you once belonged - Get back Jo!


[Electric Piano solo - same chords as verse]

[Chorus
Sweet Loretta Martin thought she was a woman,
But she was another man.
All the girls around her said she's got it comin',
But she gets it while she can.
[Chorus]
 
© A "Fab Four and More" Website - TheBeatlesWebsite.com 2012